Banda Calypso - Me telefona



SOLO DA INTRO:

Parte 1
e|--------------------5--5----------------------5-5--5-5-------------------------------
B|--------------------5--5----------------------5-5--5-5-------------------------------
G|-----------5--------5--5-------------5--------5-5--5-5------------------------------
D|-7—-7-7-7-5--7-5-7--7--7---7—-7-7-7-5--7-5-7--7-7--7-7----------------------
A|--------------------7--7----------------------7-7--7-7-------------------------------
E|--------------------5--5----------------------5-5--5-5-------------------------------

Parte 2A
e|-------8--------8--------8-------8-------8---10-7------------------------------------
B|-5-5-5----5-5-5----6-6-6----6-6-6---5-5-5--------10-8—8/10-8------------------
G|-----------------------------------------------------9---------------------------------
D|----------------------------------------------------------------------------------------
A|----------------------------------------------------------------------------------------
E|----------------------------------------------------------------------------------------

Parte 2B
e|-------8--------8--------8-------8-------8--------10-7-------------------------------
B|-5-5-5----5-5-5----6-6-6----6-6-6---5-5-5--5-5-5-----10-8—8/10-8-------------
G|---------------------------------------------------------9-----------------------------
D|----------------------------------------------------------------------------------------
A|----------------------------------------------------------------------------------------
E|----------------------------------------------------------------------------------------

RIFF
e|----------------------------------------------------------------------------------------
B|----------------------------------------------------------------------------------------
G|---------4-----------------------------------------------------------------------------
D|-5-5-5--5-7-5-5/7-------------------------------------------------------------------
A|---------------------------------------------------------------------------------------
E|---------------------------------------------------------------------------------------


Intro (Parte 1) Am F Am G(Parte 2)
 1ª Estrofe
   |Am
   |Sei que você
   |       F
   |Não ficou feliz
   |C                      G  (Riff 1)
   |Quando a gente se separou
2x |Am
   |Deixa de onda
   |       F
   |Meu bem
   |Vem pra cá
   |    C
   |E vamos nos queimar
   |       G
   |Nesse fogo do amor

 2ª Estrofe
   Dm         Am
     Me dá um toque
       C
     E eu já penso
           G
     Em tocar
           Dm
     Em você
               Am
     Me dá um cheiro
         C G     E
     Que essa noite vai prometer


REFRÃO
     C       G    Dm
     Me telefona
                   F   C
     Me manda um beijo
               G
     Que eu estou aqui morrendo
            Dm
     De saudades
          Am
     E desejos

3ª Estrofe
   C               G    Dm
     Me mande uma carta
                        F       C
     Pelo menos pra me consolar
                   G
     Que o meu coração
            Dm                 Am
     De saudades não vai agüentar

Repete:
INTRO
1ª ESTROFE
2ª ESTROFE

2X |REFRÃO
   |3ª ESTROFE


Fonte: www.guardioesdocalypso.com