Banda Calypso - A lua me traiu



Tom: G

G       D            Am
Parece até conto de fadas
       C
Mas assim aconteceu
G        D         Am
Éramos dois apaixonados
     C
Julieta e Romeu
G        D          Am
Naquela noite encantada
          C
Pedi pra lua dos amantes
G         D          Am
Que iluminasse essa hora
           C           Am
Pra esse amor eternizar
                  D
Mas num passe de mágica
              Bm
Você desapareceu
               Em
Um eclipse maldito
                 Am
O encanto se perdeu
                    D
E o meu coração partido
                       Em
Foi sofrendo e foi sofrendo
                   D
Tentando te encontrar na madrugada
Am
Fria madrugada
G            D
A lua me traiu
    Am         C
Acreditei que era pra valer
G           D
A lua me traiu
   Am              C           G
Fiquei sozinha e louca por você
     D    Am
Ah, ah, ah, ah
C                    G
Não consigo te esquecer
    D         Am
Ah, ah, ah, ah
       C            G
Apaixonada por você




---> Solo inicial e do meio da música (By Natacha Vieira Pereira)

e|---------------------------------------------------------|
B|--5--8--7--5--8--7--5---------------------5--------------|
G|-----------------------7--5--4--7--5--4--5--7--5-5--7--4-|
D|---------------------------------------------------------|
A|---------------------------------------------------------|
E|---------------------------------------------------------|

e|---------------------------------------------------------|
B|--5--8--7--5--8--7--5----------------------5-------------|
G|-----------------------7--5--4--7--5--4--5--7--5-5--7--5-|
D|---------------------------------------------------------|
A|---------------------------------------------------------|
E|---------------------------------------------------------|

e|--------------------------------------------------------|
B|----------3--5--3---7-8-7-8-7-8-7-7-8--7--5--3--3-------|
G|---3--5-------------------------------------------------|
D|--------------------------------------------------------|
A|--------------------------------------------------------|
E|--------------------------------------------------------|


Fonte: www.guardioesdocalypso.com